Page 1 of 1

TABS

Posted: Tue May 21, 2013 6:58 pm
by mrbee
HEY!!! WHEN ARE THE TABS COMING....CHOMPN AT THE BIT HERE...LOL...REALLY LOOKN FORWARD TO GETTING THEM....THANX....BY THE WAY IS THERE REALLY ANYONE READING THIS.

Re: TABS

Posted: Sun May 26, 2013 11:12 am
by emperor
Hey mrbee,
I've forwarded this to Hughie, the bass guitarist. I'll follow up and let you know as to the progress as soon as I hear anything.

Re: TABS

Posted: Sun May 26, 2013 4:32 pm
by Leask
Yes.. I read. :)
I have seen tabs for Make Me Do on line in the past.. a search might be in order.

Also if you check YouTube there is often instructions there..

http://www.youtube.com/watch?v=Yo-i3RCBY1E



Paul

Re: TABS

Posted: Sun May 26, 2013 5:18 pm
by Leask

Re: TABS

Posted: Mon May 27, 2013 7:34 pm
by mrbee
yeah man...thanx for the input....but im greedy....want more....appreciate it alot...have a good one.

Re: TABS

Posted: Sun Jun 16, 2013 6:42 pm
by Leask
(Make Me Do) Anything You Want - A Foot In Coldwater

Tabbed by Adam Bishop

D - xx0232
A - x02220

Intro (Riff 1):
E|-----------------------------------------
B|-3----3---------3---------3---------3--2-
G|-2----2----2----2---------2---------2--0-
D|-0--0----0------0---------0---------0----
A|-----------------------------------------
E|--------------0------0--2------2--3------

This is not exact, but it's roughly what's going on. Just improvise.

(With Riff 1)
In the morning light
Feels so good by me
It could be so right
You and me tonight

D A D A D
Make me do anything you want
D A D A D
Make me do anything you want

(With Riff 1)
Caught in the daytime
For a dinner at night
Comfort me at the right time
Everything's going to be alright

Chorus

Solo (I hope I have the spacing right!):
E|-----------------------------------------------------------------------------
B|-----------------------------------------------------------------------------
G|-/11----11-12-14-12-11--9-7-9b----------------------------7--9br--9-7-9-11-9-
D|----------------------------------7----7h9-7--------7-7h9--------------------
A|-----------------------------------------------------------------------------
E|-----------------------------------------------------------------------------

E|--------------------------------------------------------------------------
B|--------------------------------------------------------------------------
G|-14b----14-12-14--12-11-12-----------------6-7-9-11-12-14-12-11-12-14-14b-
D|---------------------------12-7--------7-9--------------------------------
A|--------------------------------------------------------------------------
E|--------------------------------------------------------------------------

E|--------------------------14----14--12----12/-----------14-14p12--14-14br-
B|--------------------------------------------------------------------------
G|-12-12p11----------/11-14------------------------/11-14-------------------
D|----------7---------------------------------------------------------------
A|--------------------------------------------------------------------------
E|--------------------------------------------------------------------------

E|-12----10h12p10-
B|----------------
G|----------------
D|----------------
A|----------------
E|----------------

Chorus to fade out

http://www.angelfire.com/mi/Grenfell/guitar/makeme.txt
.